ISO-10303-21;
HEADER;
FILE_DESCRIPTION (( 'STEP AP203' ),
    '1' );
FILE_NAME ('QB-CTZHWP-50.8-1550-M.STEP',
    '2020-12-24T01:38:11',
    ( '' ),
    ( '' ),
    'SwSTEP 2.0',
    'SolidWorks 2020',
    '' );
FILE_SCHEMA (( 'CONFIG_CONTROL_DESIGN' ));
ENDSEC;

DATA;
#1 = EDGE_CURVE ( 'NONE', #2, #17, #112, .T. ) ;
#2 = VERTEX_POINT ( 'NONE', #50 ) ;
#3 = PRODUCT_DEFINITION_FORMATION_WITH_SPECIFIED_SOURCE ( 'ANY', '', #8, .NOT_KNOWN. ) ;
#4 = FACE_OUTER_BOUND ( 'NONE', #170, .T. ) ;
#5 = FACE_OUTER_BOUND ( 'NONE', #22, .T. ) ;
#6 = CARTESIAN_POINT ( 'NONE',  ( 3.000000000000001332, 25.39999999999999858, 0.000000000000000000 ) ) ;
#7 = PERSON_AND_ORGANIZATION ( #142, #145 ) ;
#8 = PRODUCT ( 'QB-CTZHWP-50.8-1550-M', 'QB-CTZHWP-50.8-1550-M', '', ( #150 ) ) ;
#9 = CALENDAR_DATE ( 2020, 24, 12 ) ;
#10 = PERSON_AND_ORGANIZATION ( #142, #145 ) ;
#11 = AXIS2_PLACEMENT_3D ( 'NONE', #86, #99, #160 ) ;
#12 = SHAPE_DEFINITION_REPRESENTATION ( #81, #40 ) ;
#13 = VERTEX_POINT ( 'NONE', #97 ) ;
#14 = ORIENTED_EDGE ( 'NONE', *, *, #83, .F. ) ;
#15 = CIRCLE ( 'NONE', #167, 25.39999999999999858 ) ;
#16 = DIRECTION ( 'NONE',  ( -1.000000000000000000, -0.000000000000000000, -0.000000000000000000 ) ) ;
#17 = VERTEX_POINT ( 'NONE', #34 ) ;
#18 = DIRECTION ( 'NONE',  ( -1.000000000000000000, -0.000000000000000000, -0.000000000000000000 ) ) ;
#19 = VECTOR ( 'NONE', #122, 1000.000000000000000 ) ;
#20 =( LENGTH_UNIT ( ) NAMED_UNIT ( * ) SI_UNIT ( .MILLI., .METRE. ) );
#21 = EDGE_CURVE ( 'NONE', #154, #13, #33, .T. ) ;
#22 = EDGE_LOOP ( 'NONE', ( #161, #87 ) ) ;
#23 = ADVANCED_FACE ( 'NONE', ( #5 ), #54, .F. ) ;
#24 = PERSON_AND_ORGANIZATION_ROLE ( 'creator' ) ;
#25 = COORDINATED_UNIVERSAL_TIME_OFFSET ( 8, 0, .AHEAD. ) ;
#26 = DATE_TIME_ROLE ( 'creation_date' ) ;
#27 = COORDINATED_UNIVERSAL_TIME_OFFSET ( 8, 0, .AHEAD. ) ;
#28 = APPROVAL_STATUS ( 'not_yet_approved' ) ;
#29 = VECTOR ( 'NONE', #72, 1000.000000000000000 ) ;
#30 = ORIENTED_EDGE ( 'NONE', *, *, #21, .F. ) ;
#31 = CC_DESIGN_PERSON_AND_ORGANIZATION_ASSIGNMENT ( #41, #129, ( #8 ) ) ;
#32 = ORIENTED_EDGE ( 'NONE', *, *, #1, .F. ) ;
#33 = LINE ( 'NONE', #52, #19 ) ;
#34 = CARTESIAN_POINT ( 'NONE',  ( -3.000000000000002665, 0.000000000000000000, 25.39999999999999858 ) ) ;
#35 = CARTESIAN_POINT ( 'NONE',  ( -3.000000000000000000, 0.000000000000000000, 0.000000000000000000 ) ) ;
#36 = EDGE_CURVE ( 'NONE', #154, #2, #15, .T. ) ;
#37 = FACE_OUTER_BOUND ( 'NONE', #134, .T. ) ;
#38 = PERSON_AND_ORGANIZATION_ROLE ( 'design_supplier' ) ;
#39 = APPLICATION_PROTOCOL_DEFINITION ( 'international standard', 'config_control_design', 1994, #139 ) ;
#40 = ADVANCED_BREP_SHAPE_REPRESENTATION ( 'QB-CTZHWP-50.8-1550-M', ( #120, #132 ), #151 ) ;
#41 = PERSON_AND_ORGANIZATION ( #142, #145 ) ;
#42 = LOCAL_TIME ( 9, 38, 11.00000000000000000, #43 ) ;
#43 = COORDINATED_UNIVERSAL_TIME_OFFSET ( 8, 0, .AHEAD. ) ;
#44 = CC_DESIGN_DATE_AND_TIME_ASSIGNMENT ( #58, #26, ( #64 ) ) ;
#45 = AXIS2_PLACEMENT_3D ( 'NONE', #143, #124, #101 ) ;
#46 = CIRCLE ( 'NONE', #45, 25.39999999999999858 ) ;
#47 = CC_DESIGN_PERSON_AND_ORGANIZATION_ASSIGNMENT ( #80, #78, ( #64 ) ) ;
#48 = DESIGN_CONTEXT ( 'detailed design', #139, 'design' ) ;
#49 =( NAMED_UNIT ( * ) PLANE_ANGLE_UNIT ( ) SI_UNIT ( $, .RADIAN. ) );
#50 = CARTESIAN_POINT ( 'NONE',  ( 3.000000000000002665, 0.000000000000000000, 25.39999999999999858 ) ) ;
#51 = APPROVAL_PERSON_ORGANIZATION ( #118, #100, #76 ) ;
#52 = CARTESIAN_POINT ( 'NONE',  ( -3.000000000000000000, 3.110602869834276865E-15, -25.39999999999999858 ) ) ;
#53 = LOCAL_TIME ( 9, 38, 11.00000000000000000, #174 ) ;
#54 = PLANE ( 'NONE',  #11 ) ;
#55 = DIRECTION ( 'NONE',  ( -1.000000000000000000, -0.000000000000000000, -0.000000000000000000 ) ) ;
#56 = COORDINATED_UNIVERSAL_TIME_OFFSET ( 8, 0, .AHEAD. ) ;
#57 = AXIS2_PLACEMENT_3D ( 'NONE', #63, #125, #111 ) ;
#58 = DATE_AND_TIME ( #162, #130 ) ;
#59 = PERSON_AND_ORGANIZATION ( #142, #145 ) ;
#60 = ORIENTED_EDGE ( 'NONE', *, *, #36, .F. ) ;
#61 = DIRECTION ( 'NONE',  ( -0.000000000000000000, 0.000000000000000000, 1.000000000000000000 ) ) ;
#62 = CC_DESIGN_SECURITY_CLASSIFICATION ( #71, ( #3 ) ) ;
#63 = CARTESIAN_POINT ( 'NONE',  ( 3.000000000000002665, 0.000000000000000000, 0.000000000000000000 ) ) ;
#64 = PRODUCT_DEFINITION ( 'UNKNOWN', '', #3, #48 ) ;
#65 = ORIENTED_EDGE ( 'NONE', *, *, #21, .T. ) ;
#66 = DIRECTION ( 'NONE',  ( -1.000000000000000000, 0.000000000000000000, -0.000000000000000000 ) ) ;
#67 = DATE_TIME_ROLE ( 'classification_date' ) ;
#68 = CARTESIAN_POINT ( 'NONE',  ( 0.000000000000000000, 0.000000000000000000, 0.000000000000000000 ) ) ;
#69 = CIRCLE ( 'NONE', #57, 25.39999999999999858 ) ;
#70 = PERSON_AND_ORGANIZATION_ROLE ( 'classification_officer' ) ;
#71 = SECURITY_CLASSIFICATION ( '', '', #114 ) ;
#72 = DIRECTION ( 'NONE',  ( -1.000000000000000000, -0.000000000000000000, -0.000000000000000000 ) ) ;
#73 = DIRECTION ( 'NONE',  ( 0.000000000000000000, 0.000000000000000000, 1.000000000000000000 ) ) ;
#74 = APPROVAL ( #103, 'UNSPECIFIED' ) ;
#75 = DIRECTION ( 'NONE',  ( 0.000000000000000000, 0.000000000000000000, 1.000000000000000000 ) ) ;
#76 = APPROVAL_ROLE ( '' ) ;
#77 = CALENDAR_DATE ( 2020, 24, 12 ) ;
#78 = PERSON_AND_ORGANIZATION_ROLE ( 'creator' ) ;
#79 = DATE_AND_TIME ( #102, #106 ) ;
#80 = PERSON_AND_ORGANIZATION ( #142, #145 ) ;
#81 = PRODUCT_DEFINITION_SHAPE ( 'NONE', 'NONE',  #64 ) ;
#82 = APPROVAL_PERSON_ORGANIZATION ( #116, #115, #133 ) ;
#83 = EDGE_CURVE ( 'NONE', #13, #17, #46, .T. ) ;
#84 = ORIENTED_EDGE ( 'NONE', *, *, #1, .T. ) ;
#85 = DIRECTION ( 'NONE',  ( 0.000000000000000000, 0.000000000000000000, 1.000000000000000000 ) ) ;
#86 = CARTESIAN_POINT ( 'NONE',  ( -3.000000000000001332, 25.39999999999999858, 0.000000000000000000 ) ) ;
#87 = ORIENTED_EDGE ( 'NONE', *, *, #83, .T. ) ;
#88 = CIRCLE ( 'NONE', #147, 25.39999999999999858 ) ;
#89 = PERSON_AND_ORGANIZATION ( #142, #145 ) ;
#90 = DATE_AND_TIME ( #77, #149 ) ;
#91 = ADVANCED_FACE ( 'NONE', ( #140 ), #166, .T. ) ;
#92 = APPROVAL_DATE_TIME ( #90, #115 ) ;
#93 = APPROVAL_ROLE ( '' ) ;
#94 = UNCERTAINTY_MEASURE_WITH_UNIT (LENGTH_MEASURE( 1.000000000000000082E-05 ), #20, 'distance_accuracy_value', 'NONE');
#95 = EDGE_CURVE ( 'NONE', #17, #13, #88, .T. ) ;
#96 =( NAMED_UNIT ( * ) SI_UNIT ( $, .STERADIAN. ) SOLID_ANGLE_UNIT ( ) );
#97 = CARTESIAN_POINT ( 'NONE',  ( -3.000000000000002665, 3.110602869834276865E-15, -25.39999999999999858 ) ) ;
#98 = CARTESIAN_POINT ( 'NONE',  ( 3.000000000000002665, 0.000000000000000000, 0.000000000000000000 ) ) ;
#99 = DIRECTION ( 'NONE',  ( 1.000000000000000000, 0.000000000000000000, 0.000000000000000000 ) ) ;
#100 = APPROVAL ( #28, 'UNSPECIFIED' ) ;
#101 = DIRECTION ( 'NONE',  ( 0.000000000000000000, 0.000000000000000000, 1.000000000000000000 ) ) ;
#102 = CALENDAR_DATE ( 2020, 24, 12 ) ;
#103 = APPROVAL_STATUS ( 'not_yet_approved' ) ;
#104 = DIRECTION ( 'NONE',  ( 1.000000000000000000, 0.000000000000000000, 0.000000000000000000 ) ) ;
#105 = PRODUCT_RELATED_PRODUCT_CATEGORY ( 'detail', '', ( #8 ) ) ;
#106 = LOCAL_TIME ( 9, 38, 11.00000000000000000, #27 ) ;
#107 = ORIENTED_EDGE ( 'NONE', *, *, #36, .T. ) ;
#108 = ADVANCED_FACE ( 'NONE', ( #37 ), #168, .T. ) ;
#109 = AXIS2_PLACEMENT_3D ( 'NONE', #35, #18, #141 ) ;
#110 = PLANE ( 'NONE',  #126 ) ;
#111 = DIRECTION ( 'NONE',  ( 0.000000000000000000, 0.000000000000000000, 1.000000000000000000 ) ) ;
#112 = LINE ( 'NONE', #173, #29 ) ;
#113 = ADVANCED_FACE ( 'NONE', ( #4 ), #110, .F. ) ;
#114 = SECURITY_CLASSIFICATION_LEVEL ( 'unclassified' ) ;
#115 = APPROVAL ( #153, 'UNSPECIFIED' ) ;
#116 = PERSON_AND_ORGANIZATION ( #142, #145 ) ;
#117 = DATE_AND_TIME ( #9, #53 ) ;
#118 = PERSON_AND_ORGANIZATION ( #142, #145 ) ;
#119 = CC_DESIGN_APPROVAL ( #74, ( #3 ) ) ;
#120 = MANIFOLD_SOLID_BREP ( 'Ðý×', #157 ) ;
#121 = ORIENTED_EDGE ( 'NONE', *, *, #164, .F. ) ;
#122 = DIRECTION ( 'NONE',  ( -1.000000000000000000, -0.000000000000000000, -0.000000000000000000 ) ) ;
#123 = CC_DESIGN_APPROVAL ( #115, ( #71 ) ) ;
#124 = DIRECTION ( 'NONE',  ( -1.000000000000000000, -0.000000000000000000, -0.000000000000000000 ) ) ;
#125 = DIRECTION ( 'NONE',  ( -1.000000000000000000, -0.000000000000000000, -0.000000000000000000 ) ) ;
#126 = AXIS2_PLACEMENT_3D ( 'NONE', #6, #66, #61 ) ;
#127 = DIRECTION ( 'NONE',  ( -1.000000000000000000, -0.000000000000000000, -0.000000000000000000 ) ) ;
#128 = APPROVAL_DATE_TIME ( #131, #100 ) ;
#129 = PERSON_AND_ORGANIZATION_ROLE ( 'design_owner' ) ;
#130 = LOCAL_TIME ( 9, 38, 11.00000000000000000, #25 ) ;
#131 = DATE_AND_TIME ( #175, #42 ) ;
#132 = AXIS2_PLACEMENT_3D ( 'NONE', #68, #148, #104 ) ;
#133 = APPROVAL_ROLE ( '' ) ;
#134 = EDGE_LOOP ( 'NONE', ( #138, #65, #158, #32 ) ) ;
#135 = AXIS2_PLACEMENT_3D ( 'NONE', #169, #16, #85 ) ;
#136 = CC_DESIGN_DATE_AND_TIME_ASSIGNMENT ( #117, #67, ( #71 ) ) ;
#137 = CC_DESIGN_APPROVAL ( #100, ( #64 ) ) ;
#138 = ORIENTED_EDGE ( 'NONE', *, *, #164, .T. ) ;
#139 = APPLICATION_CONTEXT ( 'configuration controlled 3d designs of mechanical parts and assemblies' ) ;
#140 = FACE_OUTER_BOUND ( 'NONE', #155, .T. ) ;
#141 = DIRECTION ( 'NONE',  ( 0.000000000000000000, 0.000000000000000000, 1.000000000000000000 ) ) ;
#142 = PERSON ( 'UNSPECIFIED', 'UNSPECIFIED', 'UNSPECIFIED', ('UNSPECIFIED'), ('UNSPECIFIED'), ('UNSPECIFIED') ) ;
#143 = CARTESIAN_POINT ( 'NONE',  ( -3.000000000000002665, 0.000000000000000000, 0.000000000000000000 ) ) ;
#144 = CC_DESIGN_PERSON_AND_ORGANIZATION_ASSIGNMENT ( #7, #38, ( #3 ) ) ;
#145 = ORGANIZATION ( 'UNSPECIFIED', 'UNSPECIFIED', '' ) ;
#146 = CARTESIAN_POINT ( 'NONE',  ( 3.000000000000002665, 3.110602869834276865E-15, -25.39999999999999858 ) ) ;
#147 = AXIS2_PLACEMENT_3D ( 'NONE', #159, #127, #73 ) ;
#148 = DIRECTION ( 'NONE',  ( 0.000000000000000000, 0.000000000000000000, 1.000000000000000000 ) ) ;
#149 = LOCAL_TIME ( 9, 38, 11.00000000000000000, #56 ) ;
#150 = MECHANICAL_CONTEXT ( 'NONE', #172, 'mechanical' ) ;
#151 =( GEOMETRIC_REPRESENTATION_CONTEXT ( 3 ) GLOBAL_UNCERTAINTY_ASSIGNED_CONTEXT ( ( #94 ) ) GLOBAL_UNIT_ASSIGNED_CONTEXT ( ( #20, #49, #96 ) ) REPRESENTATION_CONTEXT ( 'NONE', 'WORKASPACE' ) );
#152 = APPLICATION_PROTOCOL_DEFINITION ( 'international standard', 'config_control_design', 1994, #172 ) ;
#153 = APPROVAL_STATUS ( 'not_yet_approved' ) ;
#154 = VERTEX_POINT ( 'NONE', #146 ) ;
#155 = EDGE_LOOP ( 'NONE', ( #30, #107, #84, #14 ) ) ;
#156 = CC_DESIGN_PERSON_AND_ORGANIZATION_ASSIGNMENT ( #59, #24, ( #3 ) ) ;
#157 = CLOSED_SHELL ( 'NONE', ( #108, #91, #113, #23 ) ) ;
#158 = ORIENTED_EDGE ( 'NONE', *, *, #95, .F. ) ;
#159 = CARTESIAN_POINT ( 'NONE',  ( -3.000000000000002665, 0.000000000000000000, 0.000000000000000000 ) ) ;
#160 = DIRECTION ( 'NONE',  ( 0.000000000000000000, 0.000000000000000000, -1.000000000000000000 ) ) ;
#161 = ORIENTED_EDGE ( 'NONE', *, *, #95, .T. ) ;
#162 = CALENDAR_DATE ( 2020, 24, 12 ) ;
#163 = APPROVAL_DATE_TIME ( #79, #74 ) ;
#164 = EDGE_CURVE ( 'NONE', #2, #154, #69, .T. ) ;
#165 = APPROVAL_PERSON_ORGANIZATION ( #89, #74, #93 ) ;
#166 = CYLINDRICAL_SURFACE ( 'NONE', #135, 25.39999999999999858 ) ;
#167 = AXIS2_PLACEMENT_3D ( 'NONE', #98, #55, #75 ) ;
#168 = CYLINDRICAL_SURFACE ( 'NONE', #109, 25.39999999999999858 ) ;
#169 = CARTESIAN_POINT ( 'NONE',  ( -3.000000000000000000, 0.000000000000000000, 0.000000000000000000 ) ) ;
#170 = EDGE_LOOP ( 'NONE', ( #121, #60 ) ) ;
#171 = CC_DESIGN_PERSON_AND_ORGANIZATION_ASSIGNMENT ( #10, #70, ( #71 ) ) ;
#172 = APPLICATION_CONTEXT ( 'configuration controlled 3d designs of mechanical parts and assemblies' ) ;
#173 = CARTESIAN_POINT ( 'NONE',  ( -3.000000000000000000, 0.000000000000000000, 25.39999999999999858 ) ) ;
#174 = COORDINATED_UNIVERSAL_TIME_OFFSET ( 8, 0, .AHEAD. ) ;
#175 = CALENDAR_DATE ( 2020, 24, 12 ) ;
ENDSEC;
END-ISO-10303-21;
